Okładki

Original: http://www.classicalguitarmidi.com/tablature.html

 
Tabulatury to stary system notacji stworzony do napisania muzyki do vihuela. System ten był popularny aż do XVIII wieku, wiele części dostępne tylko w notacji systemu, to jest nadal używane. W tym systemie każdy wiersz personel reprezentuje ciąg instrumentu. W hiszpańskiej i włoskiej okładki, góry ciąg jest reprezentowany przez najważniejsze, podczas gdy w okładki francuski i angielski, na odwrocie byłoby sprawy. Oto sześć pierwszych środków N. Coste etiuda nr 11 w francuski tabulatury.
Etiuda nr 11 op.38
Napoléon Coste
                                                                
E||---------------|--10----5p-4h-7--5\---|--3----7p-6h-8--7----|
B||---------------|--7-------------------|--0------------------|
G||---------------|--7-------------------|--0------------------|
D||--5------------|--0-------------------|--2------------------|
A||---------------|----------------------|---------------------|
E||---------------|----------------------|---------------------|


                                                                    
--7------------------|--------8p-7h-10--8----|-------7p-6h-8--7----|
--7----7p-6h-8--7----|-----------------------|--3------------------|
--8------------------|--9--------------------|--4------------------|
---------------------|--10-------------------|--5------------------|
---------------------|--10-------------------|--5------------------|
--7------------------|--8--------------------|---------------------|
Ta postać wyraźnie pokazuje numery na linii. Liczby te wskazują progu być zatrzymany na tym
określonego ciąg znaków. Zero oznacza grać otwarty łańcuch, X wobec Niemy ten ciąg.
Jak czytać tabulatury
Legenda:
0: otworzyć ciąg
1… x: progu mają być odtwarzane na ciąg określonego
p: pull of
h: hammer on
\: slide down; /:slide up
Wykonywanie Tabulatura
Każdej pionowej linii kropkowanej reprezentuje koniec środka. Każda linia pozioma = ciąg na gitarze,
tutaj francuski tabulatury. Na pierwszy środek przystanek 5 próg na strunie D. Na drugim
środek, zagrać akord na strunach E B G D w ciągu D 10, 7, 7 i otwarte odpowiednio.
Pierwszy ciąg na 5 progu i z lewej strony tylko zrywać, wyciągnij na 4 progu. Następnie Przybij trzy
z lewej strony, na 7 progu. Następnie slajd w dół od progu 5 do 3 jeden z pierwszych
napis na następujące akord trzeciego działania podczas gry w tym akord. Gry 7 progu 1
ciąg, zdjąć 6 troska i młot na progu 8; gry 7 progu pierwszego ciągu.
Drugi wiersz jest przeczytać podobny.
Wyjaśnienie skutków
MŁOTEK ONS
E----------------------------------------------------------------
B----------------------------------------------------------------
G----------------------------------------------------------------
D----------------------------------------------------------------
A---------5h7----------------------------------------------------
E---0------------------------------------------------------------
co chcieliby oznacza grę otwarte E, a następnie uderzyć A ciąg w
5 progu i młot na 7 progu.
PULL OFF
E----3p0--------------------------------------------------------
B---------3p0---------------------------------------------------
G--------------2p0----------------------------------------------
D-------------------2-------------------------------------------
A---------------------------------------------------------------
E---------------------------------------------------------------
Tutaj mamy malejącej notatki za pomocą pull off do otwartej
ciągi. Dla każdego pull off tylko wybrać pierwsza nuta pary
z prawej strony tak w tym przykładzie można wybrać wszystkie
notatki na 3 i 2 progi i strun byłoby
brzmiało ciągnąc.
Bo dajesz ciąg dodatkowe trochę energii gdy młotek na
i zdjąć, trzeba tylko trafić do pierwszej wiadomości ze strony do pobrania.
Można nawet mieć długi ciąg młot ons i pull off jak
to:
E----------------------------------------------------------------
B----------------------------------------------------------------
G---2h4p2h4p2h4p2h4p2h4p2----------------------------------------
D----------------------------------------------------------------
A----------------------------------------------------------------
E----------------------------------------------------------------
W tym przypadku można wybrać tylko pierwsza nuta.
ŁUKI
Gdy zajmują zakrętach trzeba wiedzieć ile zegnij Uwaga
w górę. To jest wskazana pisząc numer po ‘b’.
Na przykład, jeśli możesz to zobaczyć:
E----------------------------------------------------------------
B------7b9-------------------------------------------------------
G----------------------------------------------------------------
D----------------------------------------------------------------
A----------------------------------------------------------------
E----------------------------------------------------------------

to znaczy strajku ciąg B na 7 progu, a następnie złożyć uwagi
dwóch semitones (jeden cały krok) tak, że brzmi to tej samej wysokości, jak
Uwaga progowa na 9 progu zrobi.
SLAJDY
Najczęściej symbole stosowane slajdy / slajdu
się i \ slajd w dół.
Można również zobaczyć ‘s’ used to oznacza slajdów.
 
E----------------------------------------------------------------
B------7/9-------------------------------------------------------
G----------------------------------------------------------------
D----------------------------------------------------------------
A----------------------------------------------------------------
E----------------------------------------------------------------

 

jest wyraźnie slajdów
*up* od 7 do 9 progu. Jednak może zobacz również takie rzeczy jak te:
Może masz całą serię slajdy działa tak, jak to
E----------------------------------------------------------------
B------7/9/11\9\7\6\7--------------------------------------------
G----------------------------------------------------------------
D----------------------------------------------------------------
A----------------------------------------------------------------
E----------------------------------------------------------------
co oznacza, że tylko strajk pierwsza Uwaga za pomocą
sustain do produkcji innych notatek.
Co tabulatury nie powie
Tabulatura (zazwyczaj) nie powie długości notatka notatki tak w większości
przypadkach będziesz * mieć * aby słuchać piosenki, z tabulatury z przodu
się do pracy na ryhthm uwagi. Jednak niektóre edytory tabulatury,
jak Guitar Pro pokaże dokładnie jak w standardowej notacji długości notatki.
Tabulatura nie powie ci palce, które służy do progu których Uwaga.

 

Comments are closed.